  0
SECTION
  2
HEADER
  9
$ACADVER
  1
AC1015
  9
$ACADMAINTVER
 70
     6
  9
$DWGCODEPAGE
  3
ANSI_1254
  9
$INSBASE
 10
0.0
 20
0.0
 30
0.0
  9
$EXTMIN
 10
0.0
 20
0.0
 30
0.0
  9
$EXTMAX
 10
279.4
 20
215.9
 30
0.0
  9
$LIMMIN
 10
0.0
 20
0.0
  9
$LIMMAX
 10
279.4
 20
215.9
  9
$ORTHOMODE
 70
     0
  9
$REGENMODE
 70
     1
  9
$FILLMODE
 70
     1
  9
$QTEXTMODE
 70
     0
  9
$MIRRTEXT
 70
     1
  9
$LTSCALE
 40
1.0
  9
$ATTMODE
 70
     1
  9
$TEXTSIZE
 40
3.5
  9
$TRACEWID
 40
1.0
  9
$TEXTSTYLE
  7
Standard
  9
$CLAYER
  8
0
  9
$CELTYPE
  6
ByLayer
  9
$CECOLOR
 62
   256
  9
$CELTSCALE
 40
1.0
  9
$DISPSILH
 70
     0
  9
$DIMSCALE
 40
1.0
  9
$DIMASZ
 40
3.5
  9
$DIMEXO
 40
1.0
  9
$DIMDLI
 40
3.75
  9
$DIMRND
 40
0.0
  9
$DIMDLE
 40
0.0
  9
$DIMEXE
 40
1.0
  9
$DIMTP
 40
0.0
  9
$DIMTM
 40
0.0
  9
$DIMTXT
 40
3.5
  9
$DIMCEN
 40
2.5
  9
$DIMTSZ
 40
0.0
  9
$DIMTOL
 70
     0
  9
$DIMLIM
 70
     0
  9
$DIMTIH
 70
     1
  9
$DIMTOH
 70
     1
  9
$DIMSE1
 70
     0
  9
$DIMSE2
 70
     0
  9
$DIMTAD
 70
     1
  9
$DIMZIN
 70
     0
  9
$DIMBLK
  1

  9
$DIMASO
 70
     1
  9
$DIMSHO
 70
     1
  9
$DIMPOST
  1

  9
$DIMAPOST
  1

  9
$DIMALT
 70
     0
  9
$DIMALTD
 70
     3
  9
$DIMALTF
 40
0.0393700787
  9
$DIMLFAC
 40
1.0
  9
$DIMTOFL
 70
     1
  9
$DIMTVP
 40
0.0
  9
$DIMTIX
 70
     0
  9
$DIMSOXD
 70
     0
  9
$DIMSAH
 70
     0
  9
$DIMBLK1
  1

  9
$DIMBLK2
  1

  9
$DIMSTYLE
  2
ISO-25
  9
$DIMCLRD
 70
     0
  9
$DIMCLRE
 70
     0
  9
$DIMCLRT
 70
     0
  9
$DIMTFAC
 40
1.0
  9
$DIMGAP
 40
1.524
  9
$DIMJUST
 70
     0
  9
$DIMSD1
 70
     0
  9
$DIMSD2
 70
     0
  9
$DIMTOLJ
 70
     0
  9
$DIMTZIN
 70
     0
  9
$DIMALTZ
 70
     0
  9
$DIMALTTZ
 70
     0
  9
$DIMUPT
 70
     0
  9
$DIMDEC
 70
     2
  9
$DIMTDEC
 70
     2
  9
$DIMALTU
 70
     2
  9
$DIMALTTD
 70
     3
  9
$DIMTXSTY
  7
Standard
  9
$DIMAUNIT
 70
     0
  9
$DIMADEC
 70
     2
  9
$DIMALTRND
 40
0.0
  9
$DIMAZIN
 70
     0
  9
$DIMDSEP
 70
    44
  9
$DIMATFIT
 70
     3
  9
$DIMFRAC
 70
     0
  9
$DIMLDRBLK
  1

  9
$DIMLUNIT
 70
     2
  9
$DIMLWD
 70
    -2
  9
$DIMLWE
 70
    -2
  9
$DIMTMOVE
 70
     0
  9
$LUNITS
 70
     2
  9
$LUPREC
 70
     2
  9
$SKETCHINC
 40
1.0
  9
$FILLETRAD
 40
10.0
  9
$AUNITS
 70
     0
  9
$AUPREC
 70
     2
  9
$MENU
  1
.
  9
$ELEVATION
 40
0.0
  9
$PELEVATION
 40
0.0
  9
$THICKNESS
 40
0.0
  9
$LIMCHECK
 70
     0
  9
$CHAMFERA
 40
0.0
  9
$CHAMFERB
 40
0.0
  9
$CHAMFERC
 40
0.0
  9
$CHAMFERD
 40
0.0
  9
$SKPOLY
 70
     0
  9
$TDCREATE
 40
2459935.699284977
  9
$TDUCREATE
 40
2459935.574284977
  9
$TDUPDATE
 40
2459935.699285151
  9
$TDUUPDATE
 40
2459935.574285151
  9
$TDINDWG
 40
0.0000000116
  9
$TDUSRTIMER
 40
0.0000000116
  9
$USRTIMER
 70
     1
  9
$ANGBASE
 50
0.0
  9
$ANGDIR
 70
     0
  9
$PDMODE
 70
     0
  9
$PDSIZE
 40
-1.0
  9
$PLINEWID
 40
0.0
  9
$SPLFRAME
 70
     0
  9
$SPLINETYPE
 70
     6
  9
$SPLINESEGS
 70
     8
  9
$HANDSEED
  5
ED
  9
$SURFTAB1
 70
     6
  9
$SURFTAB2
 70
     6
  9
$SURFTYPE
 70
     6
  9
$SURFU
 70
     6
  9
$SURFV
 70
     6
  9
$UCSBASE
  2

  9
$UCSNAME
  2

  9
$UCSORG
 10
0.0
 20
0.0
 30
0.0
  9
$UCSXDIR
 10
1.0
 20
0.0
 30
0.0
  9
$UCSYDIR
 10
0.0
 20
1.0
 30
0.0
  9
$UCSORTHOREF
  2

  9
$UCSORTHOVIEW
 70
     0
  9
$UCSORGTOP
 10
0.0
 20
0.0
 30
0.0
  9
$UCSORGBOTTOM
 10
0.0
 20
0.0
 30
0.0
  9
$UCSORGLEFT
 10
0.0
 20
0.0
 30
0.0
  9
$UCSORGRIGHT
 10
0.0
 20
0.0
 30
0.0
  9
$UCSORGFRONT
 10
0.0
 20
0.0
 30
0.0
  9
$UCSORGBACK
 10
0.0
 20
0.0
 30
0.0
  9
$PUCSBASE
  2

  9
$PUCSNAME
  2

  9
$PUCSORG
 10
0.0
 20
0.0
 30
0.0
  9
$PUCSXDIR
 10
1.0
 20
0.0
 30
0.0
  9
$PUCSYDIR
 10
0.0
 20
1.0
 30
0.0
  9
$PUCSORTHOREF
  2

  9
$PUCSORTHOVIEW
 70
     0
  9
$PUCSORGTOP
 10
0.0
 20
0.0
 30
0.0
  9
$PUCSORGBOTTOM
 10
0.0
 20
0.0
 30
0.0
  9
$PUCSORGLEFT
 10
0.0
 20
0.0
 30
0.0
  9
$PUCSORGRIGHT
 10
0.0
 20
0.0
 30
0.0
  9
$PUCSORGFRONT
 10
0.0
 20
0.0
 30
0.0
  9
$PUCSORGBACK
 10
0.0
 20
0.0
 30
0.0
  9
$USERI1
 70
     0
  9
$USERI2
 70
     0
  9
$USERI3
 70
     0
  9
$USERI4
 70
     0
  9
$USERI5
 70
     0
  9
$USERR1
 40
0.0
  9
$USERR2
 40
0.0
  9
$USERR3
 40
0.0
  9
$USERR4
 40
0.0
  9
$USERR5
 40
0.0
  9
$WORLDVIEW
 70
     1
  9
$SHADEDGE
 70
     3
  9
$SHADEDIF
 70
    70
  9
$TILEMODE
 70
     1
  9
$MAXACTVP
 70
    64
  9
$PINSBASE
 10
0.0
 20
0.0
 30
0.0
  9
$PLIMCHECK
 70
     0
  9
$PEXTMIN
 10
1.0000000000E+20
 20
1.0000000000E+20
 30
1.0000000000E+20
  9
$PEXTMAX
 10
-1.0000000000E+20
 20
-1.0000000000E+20
 30
-1.0000000000E+20
  9
$PLIMMIN
 10
0.0
 20
0.0
  9
$PLIMMAX
 10
420.0
 20
297.0
  9
$UNITMODE
 70
     0
  9
$VISRETAIN
 70
     1
  9
$PLINEGEN
 70
     0
  9
$PSLTSCALE
 70
     1
  9
$TREEDEPTH
 70
  3020
  9
$CMLSTYLE
  2
Standard
  9
$CMLJUST
 70
     0
  9
$CMLSCALE
 40
20.0
  9
$PROXYGRAPHICS
 70
     1
  9
$MEASUREMENT
 70
     1
  9
$CELWEIGHT
370
    -1
  9
$ENDCAPS
280
     0
  9
$JOINSTYLE
280
     0
  9
$LWDISPLAY
290
     1
  9
$INSUNITS
 70
     4
  9
$HYPERLINKBASE
  1

  9
$STYLESHEET
  1

  9
$XEDIT
290
     1
  9
$CEPSNTYPE
380
     0
  9
$PSTYLEMODE
290
     1
  9
$FINGERPRINTGUID
  2
{d1e0fa92-078f-4ae1-994d-1a179db9e561}
  9
$VERSIONGUID
  2
{FAEB1C32-E019-11D5-929B-00C0DF256EC4}
  9
$EXTNAMES
290
     1
  9
$PSVPSCALE
 40
0.0
  9
$OLESTARTUP
290
     0
  0
ENDSEC
  0
SECTION
  2
CLASSES
  0
CLASS
  1
ACDBDICTIONARYWDFLT
  2
AcDbDictionaryWithDefault
  3
ObjectDBX Classes
 90
        0
280
     0
281
     0
  0
CLASS
  1
VISUALSTYLE
  2
AcDbVisualStyle
  3
ObjectDBX Classes
 90
     4095
280
     0
281
     0
  0
CLASS
  1
MATERIAL
  2
AcDbMaterial
  3
ObjectDBX Classes
 90
     1153
280
     0
281
     0
  0
CLASS
  1
SCALE
  2
AcDbScale
  3
ObjectDBX Classes
 90
     1153
280
     0
281
     0
  0
CLASS
  1
TABLESTYLE
  2
AcDbTableStyle
  3
ObjectDBX Classes
 90
     4095
280
     0
281
     0
  0
CLASS
  1
MLEADERSTYLE
  2
AcDbMLeaderStyle
  3
ACDB_MLEADERSTYLE_CLASS
 90
     4095
280
     0
281
     0
  0
CLASS
  1
SUN
  2
AcDbSun
  3
SCENEOE
 90
     1153
280
     0
281
     0
  0
CLASS
  1
ACDBPLACEHOLDER
  2
AcDbPlaceHolder
  3
ObjectDBX Classes
 90
        0
280
     0
281
     0
  0
CLASS
  1
LAYOUT
  2
AcDbLayout
  3
ObjectDBX Classes
 90
        0
280
     0
281
     0
  0
ENDSEC
  0
SECTION
  2
TABLES
  0
TABLE
  2
VPORT
  5
8
330
0
100
AcDbSymbolTable
 70
     1
  0
VPORT
  5
29
330
8
100
AcDbSymbolTableRecord
100
AcDbViewportTableRecord
  2
*Active
 70
     0
 10
0.0
 20
0.0
 11
1.0
 21
1.0
 12
139.7
 22
107.95
 13
0.0
 23
0.0
 14
10.0
 24
10.0
 15
10.0
 25
10.0
 16
0.0
 26
0.0
 36
1.0
 17
0.0
 27
0.0
 37
0.0
 40
215.9
 41
1.2941176471
 42
50.0
 43
0.0
 44
0.0
 50
0.0
 51
0.0
 71
     0
 72
  2000
 73
     1
 74
     3
 75
     0
 76
     0
 77
     0
 78
     0
281
     0
 65
     1
110
0.0
120
0.0
130
0.0
111
1.0
121
0.0
131
0.0
112
0.0
122
1.0
132
0.0
 79
     0
146
0.0
  0
ENDTAB
  0
TABLE
  2
LTYPE
  5
5
330
0
100
AcDbSymbolTable
 70
     6
  0
LTYPE
  5
14
330
5
100
AcDbSymbolTableRecord
100
AcDbLinetypeTableRecord
  2
ByBlock
 70
     0
  3

 72
    65
 73
     0
 40
0.0
  0
LTYPE
  5
15
330
5
100
AcDbSymbolTableRecord
100
AcDbLinetypeTableRecord
  2
ByLayer
 70
     0
  3

 72
    65
 73
     0
 40
0.0
  0
LTYPE
  5
16
330
5
100
AcDbSymbolTableRecord
100
AcDbLinetypeTableRecord
  2
Continuous
 70
     0
  3
Solid line
 72
    65
 73
     0
 40
0.0
  0
LTYPE
  5
6E
330
5
100
AcDbSymbolTableRecord
100
AcDbLinetypeTableRecord
  2
HIDDEN
 70
     0
  3
Hidden __ __ __ __ __ __ __ __ __ __ __ __ __ __
 72
    65
 73
     2
 40
1.905
 49
1.27
 74
     0
 49
-0.635
 74
     0
  0
LTYPE
  5
6F
330
5
100
AcDbSymbolTableRecord
100
AcDbLinetypeTableRecord
  2
PHANTOM
 70
     0
  3
Phantom ______  __  __  ______  __  __  ______
 72
    65
 73
     6
 40
12.7
 49
6.35
 74
     0
 49
-1.27
 74
     0
 49
1.27
 74
     0
 49
-1.27
 74
     0
 49
1.27
 74
     0
 49
-1.27
 74
     0
  0
LTYPE
  5
70
330
5
100
AcDbSymbolTableRecord
100
AcDbLinetypeTableRecord
  2
CENTER
 70
     0
  3
Center ____ _ ____ _ ____ _ ____ _ ____ _ ____
 72
    65
 73
     4
 40
10.16
 49
6.35
 74
     0
 49
-1.27
 74
     0
 49
1.27
 74
     0
 49
-1.27
 74
     0
  0
LTYPE
  5
71
330
5
100
AcDbSymbolTableRecord
100
AcDbLinetypeTableRecord
  2
CENTERX2
 70
     0
  3
Center (2x) ________  __  ________  __  _____
 72
    65
 73
     4
 40
20.32
 49
12.7
 74
     0
 49
-2.54
 74
     0
 49
2.54
 74
     0
 49
-2.54
 74
     0
  0
LTYPE
  5
72
330
5
100
AcDbSymbolTableRecord
100
AcDbLinetypeTableRecord
  2
DOT2
 70
     0
  3
Dot (.5x) ........................................
 72
    65
 73
     2
 40
0.635
 49
0.0
 74
     0
 49
-0.635
 74
     0
  0
ENDTAB
  0
TABLE
  2
LAYER
  5
2
330
0
100
AcDbSymbolTable
 70
    17
  0
LAYER
  5
10
330
2
100
AcDbSymbolTableRecord
100
AcDbLayerTableRecord
  2
0
 70
     0
 62
     7
  6
Continuous
370
    -3
390
F
  0
LAYER
  5
73
330
2
100
AcDbSymbolTableRecord
100
AcDbLayerTableRecord
  2
FORMAT
 70
     0
 62
     7
  6
Continuous
370
    -3
390
F
  0
LAYER
  5
74
330
2
100
AcDbSymbolTableRecord
100
AcDbLayerTableRecord
  2
YARDIMCI_GEOMETRI
 70
     0
 62
    -6
  6
Continuous
290
     0
370
    -3
390
F
  0
LAYER
  5
75
330
2
100
AcDbSymbolTableRecord
100
AcDbLayerTableRecord
  2
SAYFA_CERCEVESI
 70
     0
 62
     7
  6
Continuous
370
    25
390
F
  0
LAYER
  5
76
330
2
100
AcDbSymbolTableRecord
100
AcDbLayerTableRecord
  2
ANTET
 70
     0
 62
     7
  6
Continuous
370
    -3
390
F
  0
LAYER
  5
77
330
2
100
AcDbSymbolTableRecord
100
AcDbLayerTableRecord
  2
OLCU
 70
     0
 62
   150
  6
Continuous
370
    -3
390
F
  0
LAYER
  5
78
330
2
100
AcDbSymbolTableRecord
100
AcDbLayerTableRecord
  2
METIN
 70
     0
 62
    96
  6
Continuous
370
    -3
390
F
  0
LAYER
  5
79
330
2
100
AcDbSymbolTableRecord
100
AcDbLayerTableRecord
  2
BALON
 70
     0
 62
     5
  6
Continuous
370
    -3
390
F
  0
LAYER
  5
7A
330
2
100
AcDbSymbolTableRecord
100
AcDbLayerTableRecord
  2
VURGU
 70
     0
 62
     7
  6
Continuous
370
    -3
390
F
  0
LAYER
  5
7B
330
2
100
AcDbSymbolTableRecord
100
AcDbLayerTableRecord
  2
SILIK
 70
     0
 62
     7
  6
Continuous
370
    -3
390
F
  0
LAYER
  5
7C
330
2
100
AcDbSymbolTableRecord
100
AcDbLayerTableRecord
  2
MODEL
 70
     0
 62
     7
  6
Continuous
370
    -3
390
F
  0
LAYER
  5
7D
330
2
100
AcDbSymbolTableRecord
100
AcDbLayerTableRecord
  2
DETAYLANDıRMA
 70
     0
 62
   190
  6
Continuous
370
    -3
390
F
  0
LAYER
  5
7E
330
2
100
AcDbSymbolTableRecord
100
AcDbLayerTableRecord
  2
TOLERANS
 70
     0
 62
   230
  6
Continuous
370
    -3
390
F
  0
LAYER
  5
7F
330
2
100
AcDbSymbolTableRecord
100
AcDbLayerTableRecord
  2
MERKEZ_CIZGILERI
 70
     0
 62
    30
  6
Continuous
370
    -3
390
F
  0
LAYER
  5
80
330
2
100
AcDbSymbolTableRecord
100
AcDbLayerTableRecord
  2
KESIT-DETAY_CIZGILERI
 70
     0
 62
     7
  6
Continuous
370
    -3
390
F
  0
LAYER
  5
81
330
2
100
AcDbSymbolTableRecord
100
AcDbLayerTableRecord
  2
\U+041E\U+0421\U+0415\U+0412\U+042B\U+0415
 70
     0
 62
     7
  6
Continuous
370
    -3
390
F
  0
LAYER
  5
82
330
2
100
AcDbSymbolTableRecord
100
AcDbLayerTableRecord
  2
\U+0412\U+041E\U+0414\U+042F\U+041D\U+042B\U+0415_\U+0417\U+041D\U+0410\U+041A\U+0418
 70
     0
 62
    11
  6
Continuous
370
    -3
390
F
  0
ENDTAB
  0
TABLE
  2
STYLE
  5
3
330
0
100
AcDbSymbolTable
 70
     1
  0
STYLE
  5
11
330
3
100
AcDbSymbolTableRecord
100
AcDbTextStyleTableRecord
  2
Standard
 70
     0
 40
0.0
 41
1.0
 50
0.0
 71
     0
 42
3.5
  3
txt
  4

  0
ENDTAB
  0
TABLE
  2
VIEW
  5
6
330
0
100
AcDbSymbolTable
 70
     0
  0
ENDTAB
  0
TABLE
  2
UCS
  5
7
330
0
100
AcDbSymbolTable
 70
     0
  0
ENDTAB
  0
TABLE
  2
APPID
  5
9
330
0
100
AcDbSymbolTable
 70
     1
  0
APPID
  5
12
330
9
100
AcDbSymbolTableRecord
100
AcDbRegAppTableRecord
  2
ACAD
 70
     0
  0
ENDTAB
  0
TABLE
  2
DIMSTYLE
  5
A
330
0
100
AcDbSymbolTable
 70
     1
100
AcDbDimStyleTable
  0
DIMSTYLE
105
27
330
A
100
AcDbSymbolTableRecord
100
AcDbDimStyleTableRecord
  2
ISO-25
 70
     0
 41
2.5
 42
0.625
 43
3.75
 44
1.25
 73
     0
 74
     0
 77
     1
 78
     8
140
2.5
141
2.5
143
0.0393700787
147
0.625
171
     3
172
     1
178
     0
271
     2
272
     2
274
     3
278
    44
283
     0
284
     8
340
11
  0
ENDTAB
  0
TABLE
  2
BLOCK_RECORD
  5
1
330
0
100
AcDbSymbolTable
 70
     5
  0
BLOCK_RECORD
  5
1F
330
1
100
AcDbSymbolTableRecord
100
AcDbBlockTableRecord
  2
*Model_Space
340
22
  0
BLOCK_RECORD
  5
1B
330
1
100
AcDbSymbolTableRecord
100
AcDbBlockTableRecord
  2
*Paper_Space
340
1E
  0
BLOCK_RECORD
  5
23
330
1
100
AcDbSymbolTableRecord
100
AcDbBlockTableRecord
  2
*Paper_Space0
340
26
  0
BLOCK_RECORD
  5
97
330
1
100
AcDbSymbolTableRecord
100
AcDbBlockTableRecord
  2
SW_CENTERMARKSYMBOL_0
340
0
102
{BLKREFS
331
A2
102
}
  0
BLOCK_RECORD
  5
AC
330
1
100
AcDbSymbolTableRecord
100
AcDbBlockTableRecord
  2
SW_CENTERMARKSYMBOL_1
340
0
102
{BLKREFS
331
B7
102
}
  0
BLOCK_RECORD
  5
BF
330
1
100
AcDbSymbolTableRecord
100
AcDbBlockTableRecord
  2
SW_CENTERMARKSYMBOL_2
340
0
102
{BLKREFS
331
CA
102
}
  0
BLOCK_RECORD
  5
D2
330
1
100
AcDbSymbolTableRecord
100
AcDbBlockTableRecord
  2
SW_CENTERMARKSYMBOL_3
340
0
102
{BLKREFS
331
DD
102
}
  0
ENDTAB
  0
ENDSEC
  0
SECTION
  2
BLOCKS
  0
BLOCK
  5
20
330
1F
100
AcDbEntity
  8
0
100
AcDbBlockBegin
  2
*Model_Space
 70
     0
 10
0.0
 20
0.0
 30
0.0
  3
*Model_Space
  1

  0
ENDBLK
  5
21
330
1F
100
AcDbEntity
  8
0
100
AcDbBlockEnd
  0
BLOCK
  5
1C
330
1B
100
AcDbEntity
 67
     1
  8
0
100
AcDbBlockBegin
  2
*Paper_Space
 70
     0
 10
0.0
 20
0.0
 30
0.0
  3
*Paper_Space
  1

  0
ENDBLK
  5
1D
330
1B
100
AcDbEntity
 67
     1
  8
0
100
AcDbBlockEnd
  0
BLOCK
  5
24
330
23
100
AcDbEntity
  8
0
100
AcDbBlockBegin
  2
*Paper_Space0
 70
     0
 10
0.0
 20
0.0
 30
0.0
  3
*Paper_Space0
  1

  0
ENDBLK
  5
25
330
23
100
AcDbEntity
  8
0
100
AcDbBlockEnd
  0
BLOCK
  5
98
330
97
100
AcDbEntity
  8
0
100
AcDbBlockBegin
  2
SW_CENTERMARKSYMBOL_0
 70
     0
 10
0.0
 20
0.0
 30
0.0
  3
SW_CENTERMARKSYMBOL_0
  1

  0
LINE
  5
9A
330
97
100
AcDbEntity
  8
FORMAT
 62
     0
100
AcDbLine
 10
0.0
 20
0.0
 30
0.0
 11
0.0
 21
2.5
 31
0.0
  0
LINE
  5
9B
330
97
100
AcDbEntity
  8
FORMAT
 62
     0
100
AcDbLine
 10
0.0
 20
0.0
 30
0.0
 11
-2.5
 21
0.0
 31
0.0
  0
LINE
  5
9C
330
97
100
AcDbEntity
  8
FORMAT
 62
     0
100
AcDbLine
 10
0.0
 20
0.0
 30
0.0
 11
0.0
 21
-2.5
 31
0.0
  0
LINE
  5
9D
330
97
100
AcDbEntity
  8
FORMAT
 62
     0
100
AcDbLine
 10
0.0
 20
0.0
 30
0.0
 11
2.5
 21
0.0
 31
0.0
  0
LINE
  5
9E
330
97
100
AcDbEntity
  8
FORMAT
 62
     0
100
AcDbLine
 10
0.0
 20
5.0
 30
0.0
 11
0.0
 21
18.5
 31
0.0
  0
LINE
  5
9F
330
97
100
AcDbEntity
  8
FORMAT
 62
     0
100
AcDbLine
 10
-5.0
 20
0.0
 30
0.0
 11
-18.5
 21
0.0
 31
0.0
  0
LINE
  5
A0
330
97
100
AcDbEntity
  8
FORMAT
 62
     0
100
AcDbLine
 10
0.0
 20
-5.0
 30
0.0
 11
0.0
 21
-18.5
 31
0.0
  0
LINE
  5
A1
330
97
100
AcDbEntity
  8
FORMAT
 62
     0
100
AcDbLine
 10
5.0
 20
0.0
 30
0.0
 11
18.5
 21
0.0
 31
0.0
  0
ENDBLK
  5
99
330
97
100
AcDbEntity
  8
0
100
AcDbBlockEnd
  0
BLOCK
  5
AD
330
AC
100
AcDbEntity
  8
0
100
AcDbBlockBegin
  2
SW_CENTERMARKSYMBOL_1
 70
     0
 10
0.0
 20
0.0
 30
0.0
  3
SW_CENTERMARKSYMBOL_1
  1

  0
LINE
  5
AF
330
AC
100
AcDbEntity
  8
FORMAT
 62
     0
100
AcDbLine
 10
0.0
 20
0.0
 30
0.0
 11
0.0
 21
2.5
 31
0.0
  0
LINE
  5
B0
330
AC
100
AcDbEntity
  8
FORMAT
 62
     0
100
AcDbLine
 10
0.0
 20
0.0
 30
0.0
 11
-2.5
 21
0.0
 31
0.0
  0
LINE
  5
B1
330
AC
100
AcDbEntity
  8
FORMAT
 62
     0
100
AcDbLine
 10
0.0
 20
0.0
 30
0.0
 11
0.0
 21
-2.5
 31
0.0
  0
LINE
  5
B2
330
AC
100
AcDbEntity
  8
FORMAT
 62
     0
100
AcDbLine
 10
0.0
 20
0.0
 30
0.0
 11
2.5
 21
0.0
 31
0.0
  0
LINE
  5
B3
330
AC
100
AcDbEntity
  8
FORMAT
 62
     0
100
AcDbLine
 10
0.0
 20
5.0
 30
0.0
 11
0.0
 21
18.5
 31
0.0
  0
LINE
  5
B4
330
AC
100
AcDbEntity
  8
FORMAT
 62
     0
100
AcDbLine
 10
-5.0
 20
0.0
 30
0.0
 11
-18.5
 21
0.0
 31
0.0
  0
LINE
  5
B5
330
AC
100
AcDbEntity
  8
FORMAT
 62
     0
100
AcDbLine
 10
0.0
 20
-5.0
 30
0.0
 11
0.0
 21
-18.5
 31
0.0
  0
LINE
  5
B6
330
AC
100
AcDbEntity
  8
FORMAT
 62
     0
100
AcDbLine
 10
5.0
 20
0.0
 30
0.0
 11
18.5
 21
0.0
 31
0.0
  0
ENDBLK
  5
AE
330
AC
100
AcDbEntity
  8
0
100
AcDbBlockEnd
  0
BLOCK
  5
C0
330
BF
100
AcDbEntity
  8
0
100
AcDbBlockBegin
  2
SW_CENTERMARKSYMBOL_2
 70
     0
 10
0.0
 20
0.0
 30
0.0
  3
SW_CENTERMARKSYMBOL_2
  1

  0
LINE
  5
C2
330
BF
100
AcDbEntity
  8
FORMAT
 62
     0
100
AcDbLine
 10
0.0
 20
0.0
 30
0.0
 11
0.0
 21
2.5
 31
0.0
  0
LINE
  5
C3
330
BF
100
AcDbEntity
  8
FORMAT
 62
     0
100
AcDbLine
 10
0.0
 20
0.0
 30
0.0
 11
-2.5
 21
0.0
 31
0.0
  0
LINE
  5
C4
330
BF
100
AcDbEntity
  8
FORMAT
 62
     0
100
AcDbLine
 10
0.0
 20
0.0
 30
0.0
 11
0.0
 21
-2.5
 31
0.0
  0
LINE
  5
C5
330
BF
100
AcDbEntity
  8
FORMAT
 62
     0
100
AcDbLine
 10
0.0
 20
0.0
 30
0.0
 11
2.5
 21
0.0
 31
0.0
  0
LINE
  5
C6
330
BF
100
AcDbEntity
  8
FORMAT
 62
     0
100
AcDbLine
 10
0.0
 20
5.0
 30
0.0
 11
0.0
 21
18.5
 31
0.0
  0
LINE
  5
C7
330
BF
100
AcDbEntity
  8
FORMAT
 62
     0
100
AcDbLine
 10
-5.0
 20
0.0
 30
0.0
 11
-18.5
 21
0.0
 31
0.0
  0
LINE
  5
C8
330
BF
100
AcDbEntity
  8
FORMAT
 62
     0
100
AcDbLine
 10
0.0
 20
-5.0
 30
0.0
 11
0.0
 21
-18.5
 31
0.0
  0
LINE
  5
C9
330
BF
100
AcDbEntity
  8
FORMAT
 62
     0
100
AcDbLine
 10
5.0
 20
0.0
 30
0.0
 11
18.5
 21
0.0
 31
0.0
  0
ENDBLK
  5
C1
330
BF
100
AcDbEntity
  8
0
100
AcDbBlockEnd
  0
BLOCK
  5
D3
330
D2
100
AcDbEntity
  8
0
100
AcDbBlockBegin
  2
SW_CENTERMARKSYMBOL_3
 70
     0
 10
0.0
 20
0.0
 30
0.0
  3
SW_CENTERMARKSYMBOL_3
  1

  0
LINE
  5
D5
330
D2
100
AcDbEntity
  8
FORMAT
 62
     0
100
AcDbLine
 10
0.0
 20
0.0
 30
0.0
 11
0.0
 21
2.5
 31
0.0
  0
LINE
  5
D6
330
D2
100
AcDbEntity
  8
FORMAT
 62
     0
100
AcDbLine
 10
0.0
 20
0.0
 30
0.0
 11
-2.5
 21
0.0
 31
0.0
  0
LINE
  5
D7
330
D2
100
AcDbEntity
  8
FORMAT
 62
     0
100
AcDbLine
 10
0.0
 20
0.0
 30
0.0
 11
0.0
 21
-2.5
 31
0.0
  0
LINE
  5
D8
330
D2
100
AcDbEntity
  8
FORMAT
 62
     0
100
AcDbLine
 10
0.0
 20
0.0
 30
0.0
 11
2.5
 21
0.0
 31
0.0
  0
LINE
  5
D9
330
D2
100
AcDbEntity
  8
FORMAT
 62
     0
100
AcDbLine
 10
0.0
 20
5.0
 30
0.0
 11
0.0
 21
18.5
 31
0.0
  0
LINE
  5
DA
330
D2
100
AcDbEntity
  8
FORMAT
 62
     0
100
AcDbLine
 10
-5.0
 20
0.0
 30
0.0
 11
-18.5
 21
0.0
 31
0.0
  0
LINE
  5
DB
330
D2
100
AcDbEntity
  8
FORMAT
 62
     0
100
AcDbLine
 10
0.0
 20
-5.0
 30
0.0
 11
0.0
 21
-18.5
 31
0.0
  0
LINE
  5
DC
330
D2
100
AcDbEntity
  8
FORMAT
 62
     0
100
AcDbLine
 10
5.0
 20
0.0
 30
0.0
 11
18.5
 21
0.0
 31
0.0
  0
ENDBLK
  5
D4
330
D2
100
AcDbEntity
  8
0
100
AcDbBlockEnd
  0
ENDSEC
  0
SECTION
  2
ENTITIES
  0
LINE
  5
83
330
1F
100
AcDbEntity
  8
0
  6
Continuous
 62
     7
370
    25
100
AcDbLine
 10
101.3381372123
 20
134.9058431394
 30
0.0
 11
101.3381372123
 21
78.9058431394
 31
0.0
  0
LINE
  5
84
330
1F
100
AcDbEntity
  8
0
  6
Continuous
 62
     7
370
    25
100
AcDbLine
 10
133.3381372123
 20
78.9058431394
 30
0.0
 11
133.3381372123
 21
134.9058431394
 31
0.0
  0
ARC
  5
85
330
1F
100
AcDbEntity
  8
0
  6
Continuous
 62
     7
370
    25
100
AcDbCircle
 10
133.3381372123
 20
134.9058431394
 30
0.0
 40
32.0
100
AcDbArc
 50
90.0
 51
180.0
  0
LINE
  5
86
330
1F
100
AcDbEntity
  8
0
  6
Continuous
 62
     7
370
    25
100
AcDbLine
 10
189.3381372123
 20
166.9058431394
 30
0.0
 11
133.3381372123
 21
166.9058431394
 31
0.0
  0
LINE
  5
87
330
1F
100
AcDbEntity
  8
0
  6
Continuous
 62
     7
370
    25
100
AcDbLine
 10
133.3381372123
 20
134.9058431394
 30
0.0
 11
189.3381372123
 21
134.9058431394
 31
0.0
  0
LINE
  5
88
330
1F
100
AcDbEntity
  8
0
  6
Continuous
 62
     7
370
    25
100
AcDbLine
 10
117.3381372123
 20
78.9058431394
 30
0.0
 11
133.3381372123
 21
78.9058431394
 31
0.0
  0
LINE
  5
89
330
1F
100
AcDbEntity
  8
0
  6
Continuous
 62
     7
370
    25
100
AcDbLine
 10
101.3381372123
 20
78.9058431394
 30
0.0
 11
117.3381372123
 21
78.9058431394
 31
0.0
  0
LINE
  5
8A
330
1F
100
AcDbEntity
  8
0
  6
Continuous
 62
     7
370
    25
100
AcDbLine
 10
189.3381372123
 20
150.9058431394
 30
0.0
 11
189.3381372123
 21
134.9058431394
 31
0.0
  0
LINE
  5
8B
330
1F
100
AcDbEntity
  8
0
  6
Continuous
 62
     7
370
    25
100
AcDbLine
 10
189.3381372123
 20
166.9058431394
 30
0.0
 11
189.3381372123
 21
150.9058431394
 31
0.0
  0
LINE
  5
8C
330
1F
100
AcDbEntity
  8
0
  6
Continuous
 62
     1
370
    25
100
AcDbLine
 10
101.3381372123
 20
134.9058431394
 30
0.0
 11
133.3381372123
 21
134.9058431394
 31
0.0
  0
LINE
  5
8D
330
1F
100
AcDbEntity
  8
0
  6
Continuous
 62
     1
370
    25
100
AcDbLine
 10
133.3381372123
 20
166.9058431394
 30
0.0
 11
133.3381372123
 21
134.9058431394
 31
0.0
  0
LINE
  5
8E
330
1F
100
AcDbEntity
  8
0
  6
Continuous
 62
     7
370
    25
100
AcDbLine
 10
24.2601773918
 20
150.9058431394
 30
0.0
 11
24.2601773918
 21
134.9058431394
 31
0.0
  0
LINE
  5
8F
330
1F
100
AcDbEntity
  8
0
  6
Continuous
 62
     7
370
    25
100
AcDbLine
 10
56.2601773918
 20
134.9058431394
 30
0.0
 11
56.2601773918
 21
150.9058431394
 31
0.0
  0
LINE
  5
90
330
1F
100
AcDbEntity
  8
0
  6
Continuous
 62
     7
370
    25
100
AcDbLine
 10
24.2601773918
 20
134.9058431394
 30
0.0
 11
24.2601773918
 21
78.9058431394
 31
0.0
  0
LINE
  5
91
330
1F
100
AcDbEntity
  8
0
  6
Continuous
 62
     7
370
    25
100
AcDbLine
 10
56.2601773918
 20
78.9058431394
 30
0.0
 11
56.2601773918
 21
134.9058431394
 31
0.0
  0
CIRCLE
  5
92
330
1F
100
AcDbEntity
  8
0
  6
Continuous
 62
     7
370
    25
100
AcDbCircle
 10
40.2601773918
 20
150.9058431394
 30
0.0
 40
15.99999999999998
  0
CIRCLE
  5
93
330
1F
100
AcDbEntity
  8
0
  6
Continuous
 62
     7
370
    25
100
AcDbCircle
 10
40.2601773918
 20
150.9058431394
 30
0.0
 40
12.99999999999998
  0
LINE
  5
94
330
1F
100
AcDbEntity
  8
0
  6
Continuous
 62
     7
370
    25
100
AcDbLine
 10
24.2601773918
 20
78.9058431394
 30
0.0
 11
56.2601773918
 21
78.9058431394
 31
0.0
  0
LINE
  5
95
330
1F
100
AcDbEntity
  8
0
  6
Continuous
 62
     1
370
    25
100
AcDbLine
 10
40.2601773918
 20
134.9058431394
 30
0.0
 11
56.2601773918
 21
134.9058431394
 31
0.0
  0
LINE
  5
96
330
1F
100
AcDbEntity
  8
0
  6
Continuous
 62
     1
370
    25
100
AcDbLine
 10
24.2601773918
 20
134.9058431394
 30
0.0
 11
40.2601773918
 21
134.9058431394
 31
0.0
  0
INSERT
  5
A2
330
1F
100
AcDbEntity
  8
FORMAT
 62
     7
100
AcDbBlockReference
  2
SW_CENTERMARKSYMBOL_0
 10
40.2601773918
 20
150.9058431394
 30
0.0
  0
LINE
  5
A3
330
1F
100
AcDbEntity
  8
0
  6
Continuous
 62
     7
370
    25
100
AcDbLine
 10
189.3381372123
 20
215.3610681924
 30
0.0
 11
133.3381372123
 21
215.3610681924
 31
0.0
  0
LINE
  5
A4
330
1F
100
AcDbEntity
  8
0
  6
Continuous
 62
     7
370
    25
100
AcDbLine
 10
133.3381372123
 20
183.3610681924
 30
0.0
 11
189.3381372123
 21
183.3610681924
 31
0.0
  0
LINE
  5
A5
330
1F
100
AcDbEntity
  8
0
  6
Continuous
 62
     7
370
    25
100
AcDbLine
 10
133.3381372123
 20
215.3610681924
 30
0.0
 11
117.3381372123
 21
215.3610681924
 31
0.0
  0
LINE
  5
A6
330
1F
100
AcDbEntity
  8
0
  6
Continuous
 62
     7
370
    25
100
AcDbLine
 10
117.3381372123
 20
183.3610681924
 30
0.0
 11
133.3381372123
 21
183.3610681924
 31
0.0
  0
CIRCLE
  5
A7
330
1F
100
AcDbEntity
  8
0
  6
Continuous
 62
     7
370
    25
100
AcDbCircle
 10
117.3381372123
 20
199.3610681924
 30
0.0
 40
13.0
  0
CIRCLE
  5
A8
330
1F
100
AcDbEntity
  8
0
  6
Continuous
 62
     7
370
    25
100
AcDbCircle
 10
117.3381372123
 20
199.3610681924
 30
0.0
 40
16.0
  0
LINE
  5
A9
330
1F
100
AcDbEntity
  8
0
  6
Continuous
 62
     7
370
    25
100
AcDbLine
 10
189.3381372123
 20
215.3610681924
 30
0.0
 11
189.3381372123
 21
183.3610681924
 31
0.0
  0
LINE
  5
AA
330
1F
100
AcDbEntity
  8
0
  6
Continuous
 62
     1
370
    25
100
AcDbLine
 10
133.3381372123
 20
199.3610681924
 30
0.0
 11
133.3381372123
 21
183.3610681924
 31
0.0
  0
LINE
  5
AB
330
1F
100
AcDbEntity
  8
0
  6
Continuous
 62
     1
370
    25
100
AcDbLine
 10
133.3381372123
 20
215.3610681924
 30
0.0
 11
133.3381372123
 21
199.3610681924
 31
0.0
  0
INSERT
  5
B7
330
1F
100
AcDbEntity
  8
FORMAT
 62
     7
100
AcDbBlockReference
  2
SW_CENTERMARKSYMBOL_1
 10
117.3381372123
 20
199.3610681924
 30
0.0
  0
LINE
  5
B8
330
1F
100
AcDbEntity
  8
0
  6
Continuous
 62
     7
370
    25
100
AcDbLine
 10
222.84011297
 20
134.9058431394
 30
0.0
 11
222.84011297
 21
78.9058431394
 31
0.0
  0
LINE
  5
B9
330
1F
100
AcDbEntity
  8
0
  6
Continuous
 62
     7
370
    25
100
AcDbLine
 10
254.84011297
 20
78.9058431394
 30
0.0
 11
254.84011297
 21
134.9058431394
 31
0.0
  0
LINE
  5
BA
330
1F
100
AcDbEntity
  8
0
  6
Continuous
 62
     7
370
    25
100
AcDbLine
 10
254.84011297
 20
134.9058431394
 30
0.0
 11
254.84011297
 21
150.9058431394
 31
0.0
  0
LINE
  5
BB
330
1F
100
AcDbEntity
  8
0
  6
Continuous
 62
     7
370
    25
100
AcDbLine
 10
222.84011297
 20
150.9058431394
 30
0.0
 11
222.84011297
 21
134.9058431394
 31
0.0
  0
LINE
  5
BC
330
1F
100
AcDbEntity
  8
0
  6
Continuous
 62
     7
370
    25
100
AcDbLine
 10
222.84011297
 20
78.9058431394
 30
0.0
 11
254.84011297
 21
78.9058431394
 31
0.0
  0
LWPOLYLINE
  5
BD
330
1F
100
AcDbEntity
  8
0
  6
Continuous
 62
     7
370
    25
100
AcDbPolyline
 90
       44
 70
   128
 43
0.0
 10
222.84011297
 20
150.9058431394
 10
222.8848522151
 20
152.1015246368
 10
223.0188197504
 20
153.2905193982
 10
223.2412663751
 20
154.4661780827
 10
223.5509480774
 20
155.62192593
 10
223.9461329917
 20
156.7512995292
 10
224.4246110835
 20
157.8479829653
 10
224.9837065094
 20
158.9058431394
 10
225.6202925809
 20
159.9189640684
 10
226.3308092505
 20
160.8816799691
 10
227.1112830207
 20
161.7886069437
 10
227.9573491656
 20
162.6346730887
 10
228.8642761402
 20
163.4151468589
 10
229.826992041
 20
164.1256635284
 10
230.84011297
 20
164.7622495999
 10
231.8979731441
 20
165.3213450258
 10
232.9946565801
 20
165.7998231177
 10
234.1240301794
 20
166.195008032
 10
235.2797780267
 20
166.5046897343
 10
236.4554367112
 20
166.727136359
 10
237.6444314726
 20
166.8611038943
 10
238.84011297
 20
166.9058431394
 10
240.0357944674
 20
166.8611038943
 10
241.2247892288
 20
166.727136359
 10
242.4004479133
 20
166.5046897343
 10
243.5561957606
 20
166.195008032
 10
244.6855693598
 20
165.7998231177
 10
245.7822527959
 20
165.3213450258
 10
246.84011297
 20
164.7622495999
 10
247.853233899
 20
164.1256635284
 10
248.8159497997
 20
163.4151468589
 10
249.7228767743
 20
162.6346730887
 10
250.5689429193
 20
161.7886069437
 10
251.3494166895
 20
160.8816799691
 10
252.059933359
 20
159.9189640684
 10
252.6965194305
 20
158.9058431394
 10
253.2556148564
 20
157.8479829653
 10
253.7340929483
 20
156.7512995292
 10
254.1292778626
 20
155.62192593
 10
254.4389595649
 20
154.4661780827
 10
254.6614061896
 20
153.2905193982
 10
254.7953737249
 20
152.1015246368
 10
254.84011297
 20
150.9058431394
 10
254.84011297
 20
150.9058431394
  0
LINE
  5
BE
330
1F
100
AcDbEntity
  8
0
  6
Continuous
 62
     1
370
    25
100
AcDbLine
 10
222.84011297
 20
134.9058431394
 30
0.0
 11
254.84011297
 21
134.9058431394
 31
0.0
  0
INSERT
  5
CA
330
1F
100
AcDbEntity
  8
FORMAT
 62
     7
100
AcDbBlockReference
  2
SW_CENTERMARKSYMBOL_2
 10
238.84011297
 20
150.9058431394
 30
0.0
  0
LINE
  5
CB
330
1F
100
AcDbEntity
  8
0
  6
Continuous
 62
     7
370
    25
100
AcDbLine
 10
117.3381372123
 20
12.0958929931
 30
0.0
 11
133.3381372123
 21
12.0958929931
 31
0.0
  0
LINE
  5
CC
330
1F
100
AcDbEntity
  8
0
  6
Continuous
 62
     7
370
    25
100
AcDbLine
 10
133.3381372123
 20
44.0958929931
 30
0.0
 11
117.3381372123
 21
44.0958929931
 31
0.0
  0
LINE
  5
CD
330
1F
100
AcDbEntity
  8
0
  6
Continuous
 62
     7
370
    25
100
AcDbLine
 10
189.3381372123
 20
44.0958929931
 30
0.0
 11
133.3381372123
 21
44.0958929931
 31
0.0
  0
LINE
  5
CE
330
1F
100
AcDbEntity
  8
0
  6
Continuous
 62
     7
370
    25
100
AcDbLine
 10
133.3381372123
 20
12.0958929931
 30
0.0
 11
189.3381372123
 21
12.0958929931
 31
0.0
  0
LWPOLYLINE
  5
CF
330
1F
100
AcDbEntity
  8
0
  6
Continuous
 62
     7
370
    25
100
AcDbPolyline
 90
       44
 70
   128
 43
0.0
 10
117.3381372123
 20
44.0958929931
 10
116.1424557149
 20
44.051153748
 10
114.9534609535
 20
43.9171862127
 10
113.777802269
 20
43.694739588
 10
112.6220544218
 20
43.3850578857
 10
111.4926808225
 20
42.9898729714
 10
110.3959973865
 20
42.5113948796
 10
109.3381372123
 20
41.9522994537
 10
108.3250162833
 20
41.3157133822
 10
107.3623003826
 20
40.6051967126
 10
106.455373408
 20
39.8247229424
 10
105.6093072631
 20
38.9786567974
 10
104.8288334928
 20
38.0717298229
 10
104.1183168233
 20
37.1090139221
 10
103.4817307518
 20
36.0958929931
 10
102.9226353259
 20
35.038032819
 10
102.444157234
 20
33.941349383
 10
102.0489723198
 20
32.8119757837
 10
101.7392906174
 20
31.6562279364
 10
101.5168439927
 20
30.4805692519
 10
101.3828764574
 20
29.2915744905
 10
101.3381372123
 20
28.0958929931
 10
101.3828764574
 20
26.9002114957
 10
101.5168439927
 20
25.7112167343
 10
101.7392906174
 20
24.5355580498
 10
102.0489723198
 20
23.3798102025
 10
102.444157234
 20
22.2504366033
 10
102.9226353259
 20
21.1537531672
 10
103.4817307518
 20
20.0958929931
 10
104.1183168233
 20
19.0827720641
 10
104.8288334928
 20
18.1200561634
 10
105.6093072631
 20
17.2131291888
 10
106.455373408
 20
16.3670630438
 10
107.3623003826
 20
15.5865892736
 10
108.3250162833
 20
14.8760726041
 10
109.3381372123
 20
14.2394865326
 10
110.3959973865
 20
13.6803911067
 10
111.4926808225
 20
13.2019130148
 10
112.6220544218
 20
12.8067281005
 10
113.777802269
 20
12.4970463982
 10
114.9534609535
 20
12.2745997735
 10
116.1424557149
 20
12.1406322382
 10
117.3381372123
 20
12.0958929931
 10
117.3381372123
 20
12.0958929931
  0
LINE
  5
D0
330
1F
100
AcDbEntity
  8
0
  6
Continuous
 62
     7
370
    25
100
AcDbLine
 10
189.3381372123
 20
44.0958929931
 30
0.0
 11
189.3381372123
 21
12.0958929931
 31
0.0
  0
LINE
  5
D1
330
1F
100
AcDbEntity
  8
0
  6
Continuous
 62
     1
370
    25
100
AcDbLine
 10
133.3381372123
 20
44.0958929931
 30
0.0
 11
133.3381372123
 21
12.0958929931
 31
0.0
  0
INSERT
  5
DD
330
1F
100
AcDbEntity
  8
FORMAT
 62
     7
100
AcDbBlockReference
  2
SW_CENTERMARKSYMBOL_3
 10
117.3381372123
 20
28.0958929931
 30
0.0
  0
LINE
  5
DE
330
1F
100
AcDbEntity
  8
0
  6
Continuous
 62
     7
370
    25
100
AcDbLine
 10
267.1055317296
 20
69.9146265917
 30
0.0
 11
227.5075519831
 21
47.0551994607
 31
0.0
  0
LINE
  5
DF
330
1F
100
AcDbEntity
  8
0
  6
Continuous
 62
     7
370
    25
100
AcDbLine
 10
243.5062517053
 20
19.3416358645
 30
0.0
 11
283.1042314517
 21
42.2010629956
 31
0.0
  0
LINE
  5
E0
330
1F
100
AcDbEntity
  8
0
  6
Continuous
 62
     7
370
    25
100
AcDbLine
 10
208.1931933452
 20
13.6024997779
 30
0.0
 11
208.1931933452
 21
-32.1237856877
 31
0.0
  0
LINE
  5
E1
330
1F
100
AcDbEntity
  8
0
  6
Continuous
 62
     7
370
    25
100
AcDbLine
 10
240.1931933452
 20
-32.1237856877
 30
0.0
 11
240.1931933452
 21
13.6024997779
 31
0.0
  0
SPLINE
  5
E2
330
1F
100
AcDbEntity
  8
0
  6
Continuous
 62
     7
370
    25
100
AcDbSpline
210
0.0
220
0.0
230
1.0
 70
     8
 71
     3
 72
    33
 73
    29
 74
     0
 42
0.00000001
 43
0.00000001
 40
0.0
 40
0.0
 40
0.0
 40
0.0
 40
0.0253997419388739
 40
0.0644073159616719
 40
0.1035350232025038
 40
0.1428749946216385
 40
0.1823230308907978
 40
0.221775055957845
 40
0.2611741787613113
 40
0.3004857014617507
 40
0.339695484008565
 40
0.3788065606257108
 40
0.4178353445188069
 40
0.4568081088356597
 40
0.4957580227005201
 40
0.5347227494026171
 40
0.5737372004073161
 40
0.6128342220714511
 40
0.652054380268918
 40
0.6914357852106371
 40
0.7310116568387137
 40
0.7708071926741243
 40
0.8108355785898624
 40
0.8510931892159008
 40
0.8915544196506753
 40
0.9321671966642738
 40
0.9728263808734953
 40
1.0
 40
1.0
 40
1.0
 40
1.0
 10
227.5075519831064
 20
47.05519946069737
 30
0.0
 10
227.2231866705656
 20
46.88743040732198
 30
0.0
 10
226.5021082211295
 20
46.46201055639025
 30
0.0
 10
225.3713046798532
 20
45.71950775371443
 30
0.0
 10
224.119863352367
 20
44.81781847676801
 30
0.0
 10
222.8989345114067
 20
43.85085568293135
 30
0.0
 10
221.7106443533418
 20
42.8230524205194
 30
0.0
 10
220.5592852980011
 20
41.73886872048212
 30
0.0
 10
219.4481141068797
 20
40.60308871951637
 30
0.0
 10
218.379532892576
 20
39.41985180614256
 30
0.0
 10
217.3553946809344
 20
38.19293571306643
 30
0.0
 10
216.3771683186083
 20
36.92568800606161
 30
0.0
 10
215.4460797637181
 20
35.62106049091851
 30
0.0
 10
214.563240072169
 20
34.2816542286507
 30
0.0
 10
213.7297465108328
 20
32.90977686163674
 30
0.0
 10
212.9467964337187
 20
31.50756241768283
 30
0.0
 10
212.215752760919
 20
30.07706784304776
 30
0.0
 10
211.538120595846
 20
28.62022781035063
 30
0.0
 10
210.9155602156528
 20
27.13883749302484
 30
0.0
 10
210.3499254919955
 20
25.63457717096604
 30
0.0
 10
209.843344933364
 20
24.10920885998662
 30
0.0
 10
209.3982570067636
 20
22.56470509549796
 30
0.0
 10
209.0173644939533
 20
21.00340792625012
 30
0.0
 10
208.7037829529245
 20
19.42824370541004
 30
0.0
 10
208.460274665358
 20
17.84286729932346
 30
0.0
 10
208.2916842575356
 20
16.25241846741652
 30
0.0
 10
208.205675151475
 20
14.83750841405581
 30
0.0
 10
208.1967633759582
 20
13.95573541633256
 30
0.0
 10
208.1931933452101
 20
13.60249977785278
 30
0.0
  0
SPLINE
  5
E3
330
1F
100
AcDbEntity
  8
0
  6
Continuous
 62
     7
370
    25
100
AcDbSpline
210
0.0
220
0.0
230
1.0
 70
     8
 71
     3
 72
    29
 73
    25
 74
     0
 42
0.00000001
 43
0.00000001
 40
0.0
 40
0.0
 40
0.0
 40
0.0
 40
0.0473537370711758
 40
0.0955678589314672
 40
0.1423827563313667
 40
0.1883647275350348
 40
0.2339875670648818
 40
0.2796201684310384
 40
0.3255047173910938
 40
0.3717449548015859
 40
0.418417748853974
 40
0.4655099193242392
 40
0.5129407522886164
 40
0.5605891804242666
 40
0.6082877447012482
 40
0.6559250521697602
 40
0.703467043184119
 40
0.7509750489677355
 40
0.7986283817183109
 40
0.8466866845446841
 40
0.8955005129625724
 40
0.9455838831686628
 40
0.9975569946441009
 40
1.0
 40
1.0
 40
1.0
 40
1.0
 10
240.1931445688379
 20
13.58885320932985
 30
0.0
 10
240.1932906167141
 20
13.59414942537359
 30
0.0
 10
240.1935853660557
 20
13.60483808605896
 30
0.0
 10
240.2037769848286
 20
13.71113664401388
 30
0.0
 10
240.2297402658998
 20
13.8814493032734
 30
0.0
 10
240.2769922124635
 20
14.11557693491278
 30
0.0
 10
240.3500184648119
 20
14.40595650228953
 30
0.0
 10
240.4523764902289
 20
14.74634938981688
 30
0.0
 10
240.5863530950436
 20
15.12859672224713
 30
0.0
 10
240.7527969653718
 20
15.5434545828979
 30
0.0
 10
240.9509610812684
 20
15.98057630416334
 30
0.0
 10
241.1784515022899
 20
16.42891204451996
 30
0.0
 10
241.4310697563369
 20
16.8768179796557
 30
0.0
 10
241.7027829178807
 20
17.31243311149883
 30
0.0
 10
241.9859459706938
 20
17.7243759276977
 30
0.0
 10
242.2716708165386
 20
18.10242813950584
 30
0.0
 10
242.5503674849208
 20
18.43817274275252
 30
0.0
 10
242.8120625411105
 20
18.72522024222855
 30
0.0
 10
243.0469415015873
 20
18.95941630178737
 30
0.0
 10
243.2446324807479
 20
19.13830453247743
 30
0.0
 10
243.3983873728036
 20
19.26340452300052
 30
0.0
 10
243.4906137266767
 20
19.33155481408705
 30
0.0
 10
243.5300781832807
 20
19.35559179429525
 30
0.0
 10
243.5188216516502
 20
19.3490991702422
 30
0.0
 10
243.5183162909471
 20
19.34880768462619
 30
0.0
  0
LWPOLYLINE
  5
E4
330
1F
100
AcDbEntity
  8
0
  6
Continuous
 62
     7
370
    25
100
AcDbPolyline
 90
       85
 70
   128
 43
0.0
 10
263.7911730917
 20
62.5891096882
 10
263.8228085153
 20
61.5945242063
 10
263.9175378679
 20
60.5689753672
 10
264.0748313847
 20
59.518198456
 10
264.2938094164
 20
58.4480698436
 10
264.5732473491
 20
57.364574123
 10
264.9115824525
 20
56.273770642
 10
265.3069226195
 20
55.1817596161
 10
265.7570569475
 20
54.0946480139
 10
266.2594681027
 20
53.0185154044
 10
266.8113463981
 20
51.9593799577
 10
267.4096055065
 20
50.9231647888
 10
268.0508997203
 20
49.9156648334
 10
268.7316426621
 20
48.9425144398
 10
269.4480273411
 20
48.0091558598
 10
270.1960474438
 20
47.1208088132
 10
270.9715197382
 20
46.2824412969
 10
271.7701074688
 20
45.4987418023
 10
272.5873446089
 20
44.7740930948
 10
273.4186608371
 20
44.1125477039
 10
274.2594070957
 20
43.5178052598
 10
275.1048815906
 20
42.9931918035
 10
275.9503560856
 20
42.5416411862
 10
276.7911023442
 20
42.1656786621
 10
277.6224185723
 20
41.8674067663
 10
278.4396557125
 20
41.6484935561
 10
279.238243443
 20
41.510163283
 10
280.0137157375
 20
41.4531895459
 10
280.7617358401
 20
41.4778909652
 10
281.4781205192
 20
41.5841294005
 10
282.158863461
 20
41.7713107234
 10
282.8001576747
 20
42.0383881399
 10
283.3984167832
 20
42.3838680449
 10
283.9502950786
 20
42.8058183745
 10
284.4527062338
 20
43.3018794114
 10
284.9028405618
 20
43.869276981
 10
285.2981807287
 20
44.504837966
 10
285.6365158322
 20
45.2050080514
 10
285.9159537649
 20
45.9658716023
 10
286.1349317966
 20
46.7831735609
 10
286.2922253134
 20
47.6523432432
 10
286.386954666
 20
48.5685198997
 10
286.4185900896
 20
49.5265798991
 10
286.386954666
 20
50.521165381
 10
286.2922253134
 20
51.5467142201
 10
286.1349317966
 20
52.5974911312
 10
285.9159537649
 20
53.6676197437
 10
285.6365158322
 20
54.7511154643
 10
285.2981807287
 20
55.8419189452
 10
284.9028405618
 20
56.9339299712
 10
284.4527062338
 20
58.0210415734
 10
283.9502950786
 20
59.0971741829
 10
283.3984167832
 20
60.1563096296
 10
282.8001576747
 20
61.1925247984
 10
282.158863461
 20
62.2000247539
 10
281.4781205192
 20
63.1731751475
 10
280.7617358401
 20
64.1065337275
 10
280.0137157375
 20
64.9948807741
 10
279.238243443
 20
65.8332482903
 10
278.4396557125
 20
66.616947785
 10
277.6224185723
 20
67.3415964925
 10
276.7911023442
 20
68.0031418834
 10
275.9503560856
 20
68.5978843275
 10
275.1048815906
 20
69.1224977838
 10
274.2594070957
 20
69.5740484011
 10
273.4186608371
 20
69.9500109251
 10
272.5873446089
 20
70.248282821
 10
271.7701074688
 20
70.4671960312
 10
270.9715197382
 20
70.6055263043
 10
270.1960474438
 20
70.6625000414
 10
269.4480273411
 20
70.6377986221
 10
268.7316426621
 20
70.5315601868
 10
268.0508997203
 20
70.3443788639
 10
267.4096055065
 20
70.0773014473
 10
266.8113463981
 20
69.7318215424
 10
266.2594681027
 20
69.3098712128
 10
265.7570569475
 20
68.8138101759
 10
265.3069226195
 20
68.2464126063
 10
264.9115824525
 20
67.6108516213
 10
264.5732473491
 20
66.9106815359
 10
264.2938094164
 20
66.149817985
 10
264.0748313847
 20
65.3325160264
 10
263.9175378679
 20
64.4633463441
 10
263.8228085153
 20
63.5471696875
 10
263.7911730917
 20
62.5891096882
  0
LWPOLYLINE
  5
E5
330
1F
100
AcDbEntity
  8
0
  6
Continuous
 62
     7
370
    25
100
AcDbPolyline
 90
       77
 70
   128
 43
0.0
 10
265.9124934352
 20
61.3644975205
 10
265.9438901012
 20
62.2229548864
 10
266.0378656283
 20
63.0392982989
 10
266.1937780682
 20
63.807951305
 10
266.4105623808
 20
64.5236632251
 10
266.6867377096
 20
65.181545021
 10
267.020417497
 20
65.7771026931
 10
267.4093223717
 20
66.3062679785
 10
267.8507957191
 20
66.7654261419
 10
268.3418218285
 20
67.1514406672
 10
268.8790464937
 20
67.461674684
 10
269.4587999256
 20
67.6940089793
 10
270.0771218203
 20
67.8468564744
 10
270.7297884123
 20
67.9191730657
 10
271.412341327
 20
67.9104647577
 10
272.1201180359
 20
67.8207910369
 10
272.8482837063
 20
67.6507644659
 10
273.5918642285
 20
67.4015464984
 10
274.3457801934
 20
67.0748395459
 10
275.1048815906
 20
66.6728753482
 10
275.8639829878
 20
66.1983997282
 10
276.6178989528
 20
65.6546538357
 10
277.361479475
 20
65.0453520064
 10
278.0896451454
 20
64.3746563896
 10
278.7974218543
 20
63.6471485165
 10
279.479974769
 20
62.8677980035
 10
280.132641361
 20
62.0419286049
 10
280.7509632557
 20
61.175181846
 10
281.3307166875
 20
60.2734784862
 10
281.8679413528
 20
59.3429780737
 10
282.3589674622
 20
58.3900368698
 10
282.8004408095
 20
57.4211644292
 10
283.1893456842
 20
56.442979133
 10
283.5230254716
 20
55.4621629789
 10
283.7992008004
 20
54.4854159355
 10
284.0159851131
 20
53.5194101757
 10
284.171897553
 20
52.5707444982
 10
284.26587308
 20
51.6458992517
 10
284.2972697461
 20
50.7511920668
 10
284.26587308
 20
49.8927347009
 10
284.171897553
 20
49.0763912883
 10
284.0159851131
 20
48.3077382823
 10
283.7992008004
 20
47.5920263622
 10
283.5230254716
 20
46.9341445663
 10
283.1893456842
 20
46.3385868942
 10
282.8004408095
 20
45.8094216087
 10
282.3589674622
 20
45.3502634454
 10
281.8679413528
 20
44.96424892
 10
281.3307166875
 20
44.6540149032
 10
280.7509632557
 20
44.4216806079
 10
280.132641361
 20
44.2688331129
 10
279.479974769
 20
44.1965165216
 10
278.7974218543
 20
44.2052248296
 10
278.0896451454
 20
44.2948985503
 10
277.361479475
 20
44.4649251214
 10
276.6178989528
 20
44.7141430889
 10
275.8639829878
 20
45.0408500414
 10
275.1048815906
 20
45.4428142391
 10
274.3457801934
 20
45.9172898591
 10
273.5918642285
 20
46.4610357516
 10
272.8482837063
 20
47.0703375809
 10
272.1201180359
 20
47.7410331977
 10
271.412341327
 20
48.4685410708
 10
270.7297884123
 20
49.2478915838
 10
270.0771218203
 20
50.0737609824
 10
269.4587999256
 20
50.9405077413
 10
268.8790464937
 20
51.8422111011
 10
268.3418218285
 20
52.7727115136
 10
267.8507957191
 20
53.7256527175
 10
267.4093223717
 20
54.6945251581
 10
267.020417497
 20
55.6727104542
 10
266.6867377096
 20
56.6535266084
 10
266.4105623808
 20
57.6302736518
 10
266.1937780682
 20
58.5962794116
 10
266.0378656283
 20
59.5449450891
 10
265.9438901012
 20
60.4697903356
 10
265.9124934352
 20
61.3644975205
  0
LWPOLYLINE
  5
E6
330
1F
100
AcDbEntity
  8
0
  6
Continuous
 62
     7
370
    25
100
AcDbPolyline
 90
       85
 70
   128
 43
0.0
 10
212.8794848462
 20
-25.5925207932
 10
213.7565947648
 20
-25.1227014977
 10
214.692070376
 20
-24.6920351049
 10
215.680680121
 20
-24.3029300759
 10
216.7168952928
 20
-23.957562444
 10
217.7949209561
 20
-23.6578636449
 10
218.9087283539
 20
-23.4055097161
 10
220.0520886236
 20
-23.2019119229
 10
221.2186076306
 20
-23.0482088669
 10
222.4017617276
 20
-22.9452601178
 10
223.5949342368
 20
-22.8936414069
 10
224.7914524536
 20
-22.8936414069
 10
225.9846249629
 20
-22.9452601178
 10
227.1677790598
 20
-23.0482088669
 10
228.3342980669
 20
-23.2019119229
 10
229.4776583365
 20
-23.4055097161
 10
230.5914657343
 20
-23.6578636449
 10
231.6694913976
 20
-23.957562444
 10
232.7057065695
 20
-24.3029300759
 10
233.6943163144
 20
-24.6920351049
 10
234.6297919257
 20
-25.1227014977
 10
235.5069018442
 20
-25.5925207932
 10
236.3207409155
 20
-26.0988655713
 10
237.0667578215
 20
-26.6389041466
 10
237.7407805329
 20
-27.2096164044
 10
238.3390396413
 20
-27.8078106902
 10
238.8581894391
 20
-28.4301416589
 10
239.2953266301
 20
-29.0731289833
 10
239.6480065658
 20
-29.7331768175
 10
239.9142569169
 20
-30.4065939062
 10
240.0925887035
 20
-31.0896142278
 10
240.1820046218
 20
-31.7784180558
 10
240.1820046218
 20
-32.4691533197
 10
240.0925887035
 20
-33.1579571477
 10
239.9142569169
 20
-33.8409774693
 10
239.6480065658
 20
-34.514394558
 10
239.2953266301
 20
-35.1744423922
 10
238.8581894391
 20
-35.8174297166
 10
238.3390396413
 20
-36.4397606853
 10
237.7407805329
 20
-37.0379549711
 10
237.0667578215
 20
-37.6086672289
 10
236.3207409155
 20
-38.1487058042
 10
235.5069018442
 20
-38.6550505823
 10
234.6297919257
 20
-39.1248698778
 10
233.6943163144
 20
-39.5555362706
 10
232.7057065695
 20
-39.9446412996
 10
231.6694913976
 20
-40.2900089315
 10
230.5914657343
 20
-40.5897077306
 10
229.4776583365
 20
-40.8420616594
 10
228.3342980669
 20
-41.0456594526
 10
227.1677790598
 20
-41.1993625086
 10
225.9846249629
 20
-41.3023112577
 10
224.7914524536
 20
-41.3539299686
 10
223.5949342368
 20
-41.3539299686
 10
222.4017617276
 20
-41.3023112577
 10
221.2186076306
 20
-41.1993625086
 10
220.0520886236
 20
-41.0456594526
 10
218.9087283539
 20
-40.8420616594
 10
217.7949209561
 20
-40.5897077306
 10
216.7168952928
 20
-40.2900089315
 10
215.680680121
 20
-39.9446412996
 10
214.692070376
 20
-39.5555362706
 10
213.7565947648
 20
-39.1248698778
 10
212.8794848462
 20
-38.6550505823
 10
212.0656457749
 20
-38.1487058042
 10
211.3196288689
 20
-37.6086672289
 10
210.6456061576
 20
-37.0379549711
 10
210.0473470491
 20
-36.4397606853
 10
209.5281972513
 20
-35.8174297166
 10
209.0910600603
 20
-35.1744423922
 10
208.7383801246
 20
-34.514394558
 10
208.4721297735
 20
-33.8409774693
 10
208.2937979869
 20
-33.1579571477
 10
208.2043820686
 20
-32.4691533197
 10
208.2043820686
 20
-31.7784180558
 10
208.2937979869
 20
-31.0896142278
 10
208.4721297735
 20
-30.4065939062
 10
208.7383801246
 20
-29.7331768175
 10
209.0910600603
 20
-29.0731289833
 10
209.5281972513
 20
-28.4301416589
 10
210.0473470491
 20
-27.8078106902
 10
210.6456061576
 20
-27.2096164044
 10
211.3196288689
 20
-26.6389041466
 10
212.0656457749
 20
-26.0988655713
 10
212.8794848462
 20
-25.5925207932
  0
LWPOLYLINE
  5
E7
330
1F
100
AcDbEntity
  8
0
  6
Continuous
 62
     7
370
    25
100
AcDbPolyline
 90
       77
 70
   128
 43
0.0
 10
215.0008051898
 20
-26.8171329609
 10
214.2731004586
 20
-27.2734777792
 10
213.6131600207
 20
-27.7629551187
 10
213.0254919384
 20
-28.2822213528
 10
212.5141105806
 20
-28.8277293666
 10
212.0825092005
 20
-29.3957527873
 10
211.7336360733
 20
-29.9824114388
 10
211.469874356
 20
-30.5836978478
 10
211.2930258086
 20
-31.1955046184
 10
211.2042984862
 20
-31.8136524899
 10
211.2042984862
 20
-32.4339188856
 10
211.2930258086
 20
-33.0520667571
 10
211.469874356
 20
-33.6638735277
 10
211.7336360733
 20
-34.2651599367
 10
212.0825092005
 20
-34.8518185882
 10
212.5141105806
 20
-35.4198420089
 10
213.0254919384
 20
-35.9653500227
 10
213.6131600207
 20
-36.4846162568
 10
214.2731004586
 20
-36.9740935963
 10
215.0008051898
 20
-37.4304384146
 10
215.791303253
 20
-37.8505334139
 10
216.639194745
 20
-38.2315089194
 10
217.538687707
 20
-38.5707624821
 10
218.4836376902
 20
-38.8659766562
 10
219.4675897279
 20
-39.1151348294
 10
220.48382243
 20
-39.3165349989
 10
221.5253938967
 20
-39.4688013972
 10
222.5851891387
 20
-39.5708938905
 10
223.65596868
 20
-39.6221150834
 10
224.7304180104
 20
-39.6221150834
 10
225.8011975517
 20
-39.5708938905
 10
226.8609927938
 20
-39.4688013972
 10
227.9025642604
 20
-39.3165349989
 10
228.9187969625
 20
-39.1151348294
 10
229.9027490002
 20
-38.8659766562
 10
230.8476989834
 20
-38.5707624821
 10
231.7471919454
 20
-38.2315089194
 10
232.5950834374
 20
-37.8505334139
 10
233.3855815006
 20
-37.4304384146
 10
234.1132862318
 20
-36.9740935963
 10
234.7732266697
 20
-36.4846162568
 10
235.360894752
 20
-35.9653500227
 10
235.8722761098
 20
-35.4198420089
 10
236.3038774899
 20
-34.8518185882
 10
236.6527506172
 20
-34.2651599367
 10
236.9165123345
 20
-33.6638735277
 10
237.0933608818
 20
-33.0520667571
 10
237.1820882042
 20
-32.4339188856
 10
237.1820882042
 20
-31.8136524899
 10
237.0933608818
 20
-31.1955046184
 10
236.9165123345
 20
-30.5836978478
 10
236.6527506172
 20
-29.9824114388
 10
236.3038774899
 20
-29.3957527873
 10
235.8722761098
 20
-28.8277293666
 10
235.360894752
 20
-28.2822213528
 10
234.7732266697
 20
-27.7629551187
 10
234.1132862318
 20
-27.2734777792
 10
233.3855815006
 20
-26.8171329609
 10
232.5950834374
 20
-26.3970379616
 10
231.7471919454
 20
-26.0160624561
 10
230.8476989834
 20
-25.6768088934
 10
229.9027490002
 20
-25.3815947193
 10
228.9187969625
 20
-25.1324365461
 10
227.9025642604
 20
-24.9310363766
 10
226.8609927938
 20
-24.7787699783
 10
225.8011975517
 20
-24.676677485
 10
224.7304180104
 20
-24.6254562921
 10
223.65596868
 20
-24.6254562921
 10
222.5851891387
 20
-24.676677485
 10
221.5253938967
 20
-24.7787699783
 10
220.48382243
 20
-24.9310363766
 10
219.4675897279
 20
-25.1324365461
 10
218.4836376902
 20
-25.3815947193
 10
217.538687707
 20
-25.6768088934
 10
216.639194745
 20
-26.0160624561
 10
215.791303253
 20
-26.3970379616
 10
215.0008051898
 20
-26.8171329609
  0
LWPOLYLINE
  5
E8
330
1F
100
AcDbEntity
  8
0
  6
Continuous
 62
     1
370
    25
100
AcDbPolyline
 90
       12
 70
   128
 43
0.0
 10
235.5069018442
 20
20.1337646724
 10
236.3523763391
 20
19.6822140551
 10
237.1931225977
 20
19.3062515311
 10
238.0244388259
 20
19.0079796353
 10
238.841675966
 20
18.789066425
 10
239.6402636966
 20
18.6507361519
 10
240.415735991
 20
18.5937624149
 10
241.1637560937
 20
18.6184638342
 10
241.8801407728
 20
18.7247022695
 10
242.5608837145
 20
18.9118835924
 10
243.2021779283
 20
19.1789610089
 10
243.5062517053
 20
19.3416358645
  0
LWPOLYLINE
  5
E9
330
1F
100
AcDbEntity
  8
0
  6
Continuous
 62
     1
370
    25
100
AcDbPolyline
 90
       33
 70
   128
 43
0.0
 10
227.5075519831
 20
47.0551994607
 10
227.2133666517
 20
46.8723944113
 10
226.6614883562
 20
46.4504440817
 10
226.159077201
 20
45.9543830448
 10
225.7089428731
 20
45.3869854752
 10
225.3136027061
 20
44.7514244903
 10
224.9752676027
 20
44.0512544048
 10
224.69582967
 20
43.290390854
 10
224.4768516382
 20
42.4730888954
 10
224.3195581215
 20
41.6039192131
 10
224.2248287688
 20
40.6877425565
 10
224.1931933452
 20
39.7296825572
 10
224.2248287688
 20
38.7350970752
 10
224.3195581215
 20
37.7095482362
 10
224.4768516382
 20
36.658771325
 10
224.69582967
 20
35.5886427125
 10
224.9752676027
 20
34.505146992
 10
225.3136027061
 20
33.414343511
 10
225.7089428731
 20
32.3223324851
 10
226.159077201
 20
31.2352208828
 10
226.6614883562
 20
30.1590882733
 10
227.2133666517
 20
29.0999528266
 10
227.8116257601
 20
28.0637376578
 10
228.4529199739
 20
27.0562377024
 10
229.1336629156
 20
26.0830873088
 10
229.8500475947
 20
25.1497287288
 10
230.5980676974
 20
24.2613816821
 10
231.3735399918
 20
23.4230141659
 10
232.1721277223
 20
22.6393146713
 10
232.9893648625
 20
21.9146659638
 10
233.8206810906
 20
21.2531205729
 10
234.6614273493
 20
20.6583781288
 10
235.5069018442
 20
20.1337646724
  0
LWPOLYLINE
  5
EA
330
1F
100
AcDbEntity
  8
0
  6
Continuous
 62
     1
370
    25
100
AcDbPolyline
 90
       12
 70
   128
 43
0.0
 10
235.5069018442
 20
20.1337646724
 10
236.3207409155
 20
19.6274198943
 10
237.0667578215
 20
19.087381319
 10
237.7407805329
 20
18.5166690612
 10
238.3390396413
 20
17.9184747754
 10
238.8581894391
 20
17.2961438067
 10
239.2953266301
 20
16.6531564823
 10
239.6480065658
 20
15.9931086481
 10
239.9142569169
 20
15.3196915594
 10
240.0925887035
 20
14.6366712378
 10
240.1820046218
 20
13.9478674098
 10
240.1931933452
 20
13.6024997779
  0
LWPOLYLINE
  5
EB
330
1F
100
AcDbEntity
  8
0
  6
Continuous
 62
     1
370
    25
100
AcDbPolyline
 90
       33
 70
   128
 43
0.0
 10
208.1931933452
 20
13.6024997779
 10
208.2043820686
 20
13.9478674098
 10
208.2937979869
 20
14.6366712378
 10
208.4721297735
 20
15.3196915594
 10
208.7383801246
 20
15.9931086481
 10
209.0910600603
 20
16.6531564823
 10
209.5281972513
 20
17.2961438067
 10
210.0473470491
 20
17.9184747754
 10
210.6456061576
 20
18.5166690612
 10
211.3196288689
 20
19.087381319
 10
212.0656457749
 20
19.6274198943
 10
212.8794848462
 20
20.1337646724
 10
213.7565947648
 20
20.6035839679
 10
214.692070376
 20
21.0342503607
 10
215.680680121
 20
21.4233553897
 10
216.7168952928
 20
21.7687230216
 10
217.7949209561
 20
22.0684218207
 10
218.9087283539
 20
22.3207757495
 10
220.0520886236
 20
22.5243735427
 10
221.2186076306
 20
22.6780765987
 10
222.4017617276
 20
22.7810253478
 10
223.5949342368
 20
22.8326440587
 10
224.7914524536
 20
22.8326440587
 10
225.9846249629
 20
22.7810253478
 10
227.1677790598
 20
22.6780765987
 10
228.3342980669
 20
22.5243735427
 10
229.4776583365
 20
22.3207757495
 10
230.5914657343
 20
22.0684218207
 10
231.6694913976
 20
21.7687230216
 10
232.7057065695
 20
21.4233553897
 10
233.6943163144
 20
21.0342503607
 10
234.6297919257
 20
20.6035839679
 10
235.5069018442
 20
20.1337646724
  0
ENDSEC
  0
SECTION
  2
OBJECTS
  0
DICTIONARY
  5
C
330
0
100
AcDbDictionary
281
     1
  3
ACAD_GROUP
350
D
  3
ACAD_LAYOUT
350
1A
  3
ACAD_MLINESTYLE
350
17
  3
ACAD_PLOTSETTINGS
350
19
  3
ACAD_PLOTSTYLENAME
350
E
  3
ACAD_SCALELIST
350
47
  3
DWGPROPS
350
EC
  0
DICTIONARY
  5
D
102
{ACAD_REACTORS
330
C
102
}
330
C
100
AcDbDictionary
281
     1
  0
DICTIONARY
  5
1A
102
{ACAD_REACTORS
330
C
102
}
330
C
100
AcDbDictionary
281
     1
  3
Layout1
350
1E
  3
Layout2
350
26
  3
Model
350
22
  0
DICTIONARY
  5
17
102
{ACAD_REACTORS
330
C
102
}
330
C
100
AcDbDictionary
281
     1
  3
Standard
350
18
  0
DICTIONARY
  5
19
102
{ACAD_REACTORS
330
C
102
}
330
C
100
AcDbDictionary
281
     1
  0
ACDBDICTIONARYWDFLT
  5
E
102
{ACAD_REACTORS
330
C
102
}
330
C
100
AcDbDictionary
281
     1
  3
Normal
350
F
100
AcDbDictionaryWithDefault
340
F
  0
DICTIONARY
  5
47
102
{ACAD_REACTORS
330
C
102
}
330
C
100
AcDbDictionary
281
     1
  3
A0
350
48
  3
A1
350
49
  3
A2
350
4A
  3
A3
350
4B
  3
A4
350
4C
  3
A5
350
4D
  3
A6
350
4E
  3
A7
350
4F
  3
A8
350
50
  3
A9
350
51
  3
B0
350
52
  3
B1
350
53
  3
B2
350
54
  3
B3
350
55
  3
B4
350
56
  3
B5
350
57
  3
B6
350
58
  3
B7
350
59
  3
B8
350
5A
  3
B9
350
5B
  3
C0
350
5C
  3
C1
350
5D
  3
C2
350
5E
  3
C3
350
5F
  3
C4
350
60
  3
C5
350
61
  3
C6
350
62
  3
C7
350
63
  3
C8
350
64
  3
C9
350
65
  3
D0
350
66
  3
D1
350
67
  3
D2
350
68
  0
XRECORD
  5
EC
102
{ACAD_REACTORS
330
C
102
}
330
C
100
AcDbXrecord
280
     1
  1
DWGPROPS COOKIE
  2

  3

  4

  6

  7

  8
b.kav
  9

300
=
301
=
302
=
303
=
304
=
305
=
306
=
307
=
308
=
309
=
 40
0.0
 41
2459935.574284977
 42
2459935.574285151
  1

 90
        0
  0
LAYOUT
  5
1E
102
{ACAD_REACTORS
330
1A
102
}
330
1A
100
AcDbPlotSettings
  1

  2
none_device
  4

  6

 40
0.0
 41
0.0
 42
0.0
 43
0.0
 44
0.0
 45
0.0
 46
0.0
 47
0.0
 48
0.0
 49
0.0
140
0.0
141
0.0
142
1.0
143
1.0
 70
   688
 72
     1
 73
     0
 74
     5
  7

 75
    16
147
1.0
148
0.0
149
0.0
100
AcDbLayout
  1
Layout1
 70
     1
 71
     1
 10
0.0
 20
0.0
 11
420.0
 21
297.0
 12
0.0
 22
0.0
 32
0.0
 14
1.0000000000E+20
 24
1.0000000000E+20
 34
1.0000000000E+20
 15
-1.0000000000E+20
 25
-1.0000000000E+20
 35
-1.0000000000E+20
146
0.0
 13
0.0
 23
0.0
 33
0.0
 16
1.0
 26
0.0
 36
0.0
 17
0.0
 27
1.0
 37
0.0
 76
     0
330
1B
  0
LAYOUT
  5
26
102
{ACAD_REACTORS
330
1A
102
}
330
1A
100
AcDbPlotSettings
  1

  2
none_device
  4

  6

 40
0.0
 41
0.0
 42
0.0
 43
0.0
 44
0.0
 45
0.0
 46
0.0
 47
0.0
 48
0.0
 49
0.0
140
0.0
141
0.0
142
1.0
143
1.0
 70
   688
 72
     1
 73
     0
 74
     5
  7

 75
    16
147
1.0
148
0.0
149
0.0
100
AcDbLayout
  1
Layout2
 70
     1
 71
     2
 10
0.0
 20
0.0
 11
0.0
 21
0.0
 12
0.0
 22
0.0
 32
0.0
 14
0.0
 24
0.0
 34
0.0
 15
0.0
 25
0.0
 35
0.0
146
0.0
 13
0.0
 23
0.0
 33
0.0
 16
1.0
 26
0.0
 36
0.0
 17
0.0
 27
1.0
 37
0.0
 76
     0
330
23
  0
LAYOUT
  5
22
102
{ACAD_REACTORS
330
1A
102
}
330
1A
100
AcDbPlotSettings
  1

  2
none_device
  4
Letter_(8.50_x_11.00_Inches)
  6

 40
6.35
 41
6.35
 42
6.35000508
 43
6.35000508
 44
215.9
 45
279.4
 46
0.0
 47
0.0
 48
0.0
 49
0.0
140
0.0
141
0.0
142
1.0
143
1.0
 70
  1712
 72
     1
 73
     0
 74
     0
  7

 75
     0
147
1.0
148
0.0
149
0.0
100
AcDbLayout
  1
Model
 70
     1
 71
     0
 10
0.0
 20
0.0
 11
279.4
 21
215.9
 12
0.0
 22
0.0
 32
0.0
 14
0.0
 24
0.0
 34
0.0
 15
279.4
 25
215.9
 35
0.0
146
0.0
 13
0.0
 23
0.0
 33
0.0
 16
1.0
 26
0.0
 36
0.0
 17
0.0
 27
1.0
 37
0.0
 76
     0
330
1F
331
29
  0
MLINESTYLE
  5
18
102
{ACAD_REACTORS
330
17
102
}
330
17
100
AcDbMlineStyle
  2
Standard
 70
     0
  3

 62
   256
 51
90.0
 52
90.0
 71
     2
 49
0.5
 62
   256
  6
BYLAYER
 49
-0.5
 62
   256
  6
BYLAYER
  0
ACDBPLACEHOLDER
  5
F
102
{ACAD_REACTORS
330
E
102
}
330
E
  0
SCALE
  5
48
102
{ACAD_REACTORS
330
47
102
}
330
47
100
AcDbScale
 70
     0
300
1:1
140
1.0
141
1.0
290
     1
  0
SCALE
  5
49
102
{ACAD_REACTORS
330
47
102
}
330
47
100
AcDbScale
 70
     0
300
1:2
140
1.0
141
2.0
290
     0
  0
SCALE
  5
4A
102
{ACAD_REACTORS
330
47
102
}
330
47
100
AcDbScale
 70
     0
300
1:4
140
1.0
141
4.0
290
     0
  0
SCALE
  5
4B
102
{ACAD_REACTORS
330
47
102
}
330
47
100
AcDbScale
 70
     0
300
1:5
140
1.0
141
5.0
290
     0
  0
SCALE
  5
4C
102
{ACAD_REACTORS
330
47
102
}
330
47
100
AcDbScale
 70
     0
300
1:8
140
1.0
141
8.0
290
     0
  0
SCALE
  5
4D
102
{ACAD_REACTORS
330
47
102
}
330
47
100
AcDbScale
 70
     0
300
1:10
140
1.0
141
10.0
290
     0
  0
SCALE
  5
4E
102
{ACAD_REACTORS
330
47
102
}
330
47
100
AcDbScale
 70
     0
300
1:16
140
1.0
141
16.0
290
     0
  0
SCALE
  5
4F
102
{ACAD_REACTORS
330
47
102
}
330
47
100
AcDbScale
 70
     0
300
1:20
140
1.0
141
20.0
290
     0
  0
SCALE
  5
50
102
{ACAD_REACTORS
330
47
102
}
330
47
100
AcDbScale
 70
     0
300
1:30
140
1.0
141
30.0
290
     0
  0
SCALE
  5
51
102
{ACAD_REACTORS
330
47
102
}
330
47
100
AcDbScale
 70
     0
300
1:40
140
1.0
141
40.0
290
     0
  0
SCALE
  5
52
102
{ACAD_REACTORS
330
47
102
}
330
47
100
AcDbScale
 70
     0
300
1:50
140
1.0
141
50.0
290
     0
  0
SCALE
  5
53
102
{ACAD_REACTORS
330
47
102
}
330
47
100
AcDbScale
 70
     0
300
1:100
140
1.0
141
100.0
290
     0
  0
SCALE
  5
54
102
{ACAD_REACTORS
330
47
102
}
330
47
100
AcDbScale
 70
     0
300
2:1
140
2.0
141
1.0
290
     0
  0
SCALE
  5
55
102
{ACAD_REACTORS
330
47
102
}
330
47
100
AcDbScale
 70
     0
300
4:1
140
4.0
141
1.0
290
     0
  0
SCALE
  5
56
102
{ACAD_REACTORS
330
47
102
}
330
47
100
AcDbScale
 70
     0
300
8:1
140
8.0
141
1.0
290
     0
  0
SCALE
  5
57
102
{ACAD_REACTORS
330
47
102
}
330
47
100
AcDbScale
 70
     0
300
10:1
140
10.0
141
1.0
290
     0
  0
SCALE
  5
58
102
{ACAD_REACTORS
330
47
102
}
330
47
100
AcDbScale
 70
     0
300
100:1
140
100.0
141
1.0
290
     0
  0
SCALE
  5
59
102
{ACAD_REACTORS
330
47
102
}
330
47
100
AcDbScale
 70
     0
300
1/128" = 1'-0"
140
0.0078125
141
12.0
290
     0
  0
SCALE
  5
5A
102
{ACAD_REACTORS
330
47
102
}
330
47
100
AcDbScale
 70
     0
300
1/64" = 1'-0"
140
0.015625
141
12.0
290
     0
  0
SCALE
  5
5B
102
{ACAD_REACTORS
330
47
102
}
330
47
100
AcDbScale
 70
     0
300
1/32" = 1'-0"
140
0.03125
141
12.0
290
     0
  0
SCALE
  5
5C
102
{ACAD_REACTORS
330
47
102
}
330
47
100
AcDbScale
 70
     0
300
1/16" = 1'-0"
140
0.0625
141
12.0
290
     0
  0
SCALE
  5
5D
102
{ACAD_REACTORS
330
47
102
}
330
47
100
AcDbScale
 70
     0
300
3/32" = 1'-0"
140
0.09375
141
12.0
290
     0
  0
SCALE
  5
5E
102
{ACAD_REACTORS
330
47
102
}
330
47
100
AcDbScale
 70
     0
300
1/8" = 1'-0"
140
0.125
141
12.0
290
     0
  0
SCALE
  5
5F
102
{ACAD_REACTORS
330
47
102
}
330
47
100
AcDbScale
 70
     0
300
3/16" = 1'-0"
140
0.1875
141
12.0
290
     0
  0
SCALE
  5
60
102
{ACAD_REACTORS
330
47
102
}
330
47
100
AcDbScale
 70
     0
300
1/4" = 1'-0"
140
0.25
141
12.0
290
     0
  0
SCALE
  5
61
102
{ACAD_REACTORS
330
47
102
}
330
47
100
AcDbScale
 70
     0
300
3/8" = 1'-0"
140
0.375
141
12.0
290
     0
  0
SCALE
  5
62
102
{ACAD_REACTORS
330
47
102
}
330
47
100
AcDbScale
 70
     0
300
1/2" = 1'-0"
140
0.5
141
12.0
290
     0
  0
SCALE
  5
63
102
{ACAD_REACTORS
330
47
102
}
330
47
100
AcDbScale
 70
     0
300
3/4" = 1'-0"
140
0.75
141
12.0
290
     0
  0
SCALE
  5
64
102
{ACAD_REACTORS
330
47
102
}
330
47
100
AcDbScale
 70
     0
300
1" = 1'-0"
140
1.0
141
12.0
290
     0
  0
SCALE
  5
65
102
{ACAD_REACTORS
330
47
102
}
330
47
100
AcDbScale
 70
     0
300
1-1/2" = 1'-0"
140
1.5
141
12.0
290
     0
  0
SCALE
  5
66
102
{ACAD_REACTORS
330
47
102
}
330
47
100
AcDbScale
 70
     0
300
3" = 1'-0"
140
3.0
141
12.0
290
     0
  0
SCALE
  5
67
102
{ACAD_REACTORS
330
47
102
}
330
47
100
AcDbScale
 70
     0
300
6" = 1'-0"
140
6.0
141
12.0
290
     0
  0
SCALE
  5
68
102
{ACAD_REACTORS
330
47
102
}
330
47
100
AcDbScale
 70
     0
300
1'-0" = 1'-0"
140
12.0
141
12.0
290
     0
  0
ENDSEC
  0
EOF
